  0
SECTION
  2
HEADER
  9
$ACADVER
  1
AC1014
  9
$HANDSEED
  5
FFFF
  9
$MEASUREMENT
 70
     1
  0
ENDSEC
  0
SECTION
  2
TABLES
  0
TABLE
  2
VPORT
  5
8
330
0
100
AcDbSymbolTable
 70
     4
  0
VPORT
  5
2E
330
8
100
AcDbSymbolTableRecord
100
AcDbViewportTableRecord
  2
*ACTIVE
 70
     0
 10
0.0
 20
0.0
 11
1.0
 21
1.0
 12
210.0
 22
148.5
 13
0.0
 23
0.0
 14
10.0
 24
10.0
 15
10.0
 25
10.0
 16
0.0
 26
0.0
 36
1.0
 17
0.0
 27
0.0
 37
0.0
 40
341.0
 41
1.24
 42
50.0
 43
0.0
 44
0.0
 50
0.0
 51
0.0
 71
     0
 72
   100
 73
     1
 74
     3
 75
     0
 76
     0
 77
     0
 78
     0
  0
ENDTAB
  0
TABLE
  2
LTYPE
  5
5
330
0
100
AcDbSymbolTable
 70
     1
  0
LTYPE
  5
14
330
5
100
AcDbSymbolTableRecord
100
AcDbLinetypeTableRecord
  2
BYBLOCK
 70
     0
  3

 72
    65
 73
     0
 40
0.0
  0
LTYPE
  5
15
330
5
100
AcDbSymbolTableRecord
100
AcDbLinetypeTableRecord
  2
BYLAYER
 70
     0
  3

 72
    65
 73
     0
 40
0.0
  0
LTYPE
  5
16
330
5
100
AcDbSymbolTableRecord
100
AcDbLinetypeTableRecord
  2
CONTINUOUS
 70
     0
  3
Solid line
 72
    65
 73
     0
 40
0.0
  0
ENDTAB
  0
TABLE
  2
LAYER
  5
2
100
AcDbSymbolTable
 70
2
  0
LAYER
  5
50
100
AcDbSymbolTableRecord
100
AcDbLayerTableRecord
  2
0
 70
0
  6
CONTINUOUS
  0
LAYER
  5
51
100
AcDbSymbolTableRecord
100
AcDbLayerTableRecord
  2
Layer_1
 70
0
  6
CONTINUOUS
  0
ENDTAB
  0
TABLE
  2
STYLE
  5
3
330
0
100
AcDbSymbolTable
 70
     1
  0
STYLE
  5
11
330
3
100
AcDbSymbolTableRecord
100
AcDbTextStyleTableRecord
  2
STANDARD
 70
     0
 40
0.0
 41
1.0
 50
0.0
 71
     0
 42
2.5
  3
txt
  4

  0
ENDTAB
  0
TABLE
  2
VIEW
  5
6
330
0
100
AcDbSymbolTable
 70
     0
  0
ENDTAB
  0
TABLE
  2
UCS
  5
7
330
0
100
AcDbSymbolTable
 70
     0
  0
ENDTAB
  0
TABLE
  2
APPID
  5
9
330
0
100
AcDbSymbolTable
 70
     2
  0
APPID
  5
12
330
9
100
AcDbSymbolTableRecord
100
AcDbRegAppTableRecord
  2
ACAD
 70
     0
  0
ENDTAB
  0
TABLE
  2
DIMSTYLE
  5
A
330
0
100
AcDbSymbolTable
 70
     1
  0
DIMSTYLE
105
27
330
A
100
AcDbSymbolTableRecord
100
AcDbDimStyleTableRecord
  2
ISO-25
 70
     0
  3

  4

  5

  6

  7

 40
1.0
 41
2.5
 42
0.625
 43
3.75
 44
1.25
 45
0.0
 46
0.0
 47
0.0
 48
0.0
140
2.5
141
2.5
142
0.0
143
0.03937007874016
144
1.0
145
0.0
146
1.0
147
0.625
 71
     0
 72
     0
 73
     0
 74
     0
 75
     0
 76
     0
 77
     1
 78
     8
170
     0
171
     3
172
     1
173
     0
174
     0
175
     0
176
     0
177
     0
178
     0
270
     2
271
     2
272
     2
273
     2
274
     3
340
11
275
     0
280
     0
281
     0
282
     0
283
     0
284
     8
285
     0
286
     0
287
     3
288
     0
  0
ENDTAB
  0
TABLE
  2
BLOCK_RECORD
  5
1
330
0
100
AcDbSymbolTable
 70
     1
  0
BLOCK_RECORD
  5
1F
330
1
100
AcDbSymbolTableRecord
100
AcDbBlockTableRecord
  2
*MODEL_SPACE
  0
BLOCK_RECORD
  5
1B
330
1
100
AcDbSymbolTableRecord
100
AcDbBlockTableRecord
  2
*PAPER_SPACE
  0
ENDTAB
  0
ENDSEC
  0
SECTION
  2
BLOCKS
  0
BLOCK
  5
20
330
1F
100
AcDbEntity
  8
0
100
AcDbBlockBegin
  2
*MODEL_SPACE
 70
     0
 10
0.0
 20
0.0
 30
0.0
  3
*MODEL_SPACE
  1

  0
ENDBLK
  5
21
330
1F
100
AcDbEntity
  8
0
100
AcDbBlockEnd
  0
BLOCK
  5
1C
330
1B
100
AcDbEntity
 67
     1
  8
0
100
AcDbBlockBegin
  2
*PAPER_SPACE
  1

  0
ENDBLK
  5
1D
330
1B
100
AcDbEntity
 67
     1
  8
0
100
AcDbBlockEnd
  0
ENDSEC
  0
SECTION
  2
ENTITIES
  0
SPLINE
  5
100
100
AcDbEntity
  8
Layer_1
 62
7
100
AcDbSpline
 70
8
 71
3
 72
8
 73
4
 74
0
 40
0
 40
0
 40
0
 40
0
 40
1
 40
1
 40
1
 40
1
 10
98.856450
 20
162.550600
 30
0.0
 10
99.428265
 20
162.550314
 30
0.0
 10
99.956767
 20
162.855210
 30
0.0
 10
100.242757
 20
163.350369
 30
0.0
  0
SPLINE
  5
101
100
AcDbEntity
  8
Layer_1
 62
7
100
AcDbSpline
 70
8
 71
3
 72
8
 73
4
 74
0
 40
0
 40
0
 40
0
 40
0
 40
1
 40
1
 40
1
 40
1
 10
100.242757
 20
163.350369
 30
0.0
 10
100.528748
 20
163.845528
 30
0.0
 10
100.528748
 20
164.455672
 30
0.0
 10
100.242757
 20
164.950831
 30
0.0
  0
SPLINE
  5
102
100
AcDbEntity
  8
Layer_1
 62
7
100
AcDbSpline
 70
8
 71
3
 72
8
 73
4
 74
0
 40
0
 40
0
 40
0
 40
0
 40
1
 40
1
 40
1
 40
1
 10
100.242757
 20
164.950831
 30
0.0
 10
99.956767
 20
165.445990
 30
0.0
 10
99.428265
 20
165.750886
 30
0.0
 10
98.856450
 20
165.750600
 30
0.0
  0
SPLINE
  5
103
100
AcDbEntity
  8
Layer_1
 62
7
100
AcDbSpline
 70
8
 71
3
 72
8
 73
4
 74
0
 40
0
 40
0
 40
0
 40
0
 40
1
 40
1
 40
1
 40
1
 10
98.856450
 20
165.750600
 30
0.0
 10
98.284635
 20
165.750886
 30
0.0
 10
97.756133
 20
165.445990
 30
0.0
 10
97.470143
 20
164.950831
 30
0.0
  0
SPLINE
  5
104
100
AcDbEntity
  8
Layer_1
 62
7
100
AcDbSpline
 70
8
 71
3
 72
8
 73
4
 74
0
 40
0
 40
0
 40
0
 40
0
 40
1
 40
1
 40
1
 40
1
 10
97.470143
 20
164.950831
 30
0.0
 10
97.184152
 20
164.455672
 30
0.0
 10
97.184152
 20
163.845528
 30
0.0
 10
97.470143
 20
163.350369
 30
0.0
  0
SPLINE
  5
105
100
AcDbEntity
  8
Layer_1
 62
7
100
AcDbSpline
 70
8
 71
3
 72
8
 73
4
 74
0
 40
0
 40
0
 40
0
 40
0
 40
1
 40
1
 40
1
 40
1
 10
97.470143
 20
163.350369
 30
0.0
 10
97.756133
 20
162.855210
 30
0.0
 10
98.284635
 20
162.550314
 30
0.0
 10
98.856450
 20
162.550600
 30
0.0
  0
LINE
  5
106
100
AcDbEntity
  8
Layer_1
 62
7
100
AcDbLine
 10
98.856450
 20
162.550600
 30
0.0
 11
98.856450
 21
162.550600
 31
0.0
  0
LINE
  5
107
100
AcDbEntity
  8
Layer_1
 62
7
100
AcDbLine
 10
88.086405
 20
176.820682
 30
0.0
 11
99.306405
 21
176.820682
 31
0.0
  0
SPLINE
  5
108
100
AcDbEntity
  8
Layer_1
 62
7
100
AcDbSpline
 70
8
 71
3
 72
8
 73
4
 74
0
 40
0
 40
0
 40
0
 40
0
 40
1
 40
1
 40
1
 40
1
 10
99.306405
 20
176.820682
 30
0.0
 10
99.571625
 20
176.820676
 30
0.0
 10
99.825984
 20
176.926031
 30
0.0
 10
100.013525
 20
177.113568
 30
0.0
  0
SPLINE
  5
109
100
AcDbEntity
  8
Layer_1
 62
7
100
AcDbSpline
 70
8
 71
3
 72
8
 73
4
 74
0
 40
0
 40
0
 40
0
 40
0
 40
1
 40
1
 40
1
 40
1
 10
100.013525
 20
177.113568
 30
0.0
 10
100.201065
 20
177.301105
 30
0.0
 10
100.306425
 20
177.555462
 30
0.0
 10
100.306425
 20
177.820682
 30
0.0
  0
LINE
  5
10a
100
AcDbEntity
  8
Layer_1
 62
7
100
AcDbLine
 10
100.306425
 20
177.820682
 30
0.0
 11
100.306425
 21
204.680692
 31
0.0
  0
SPLINE
  5
10b
100
AcDbEntity
  8
Layer_1
 62
7
100
AcDbSpline
 70
8
 71
3
 72
8
 73
4
 74
0
 40
0
 40
0
 40
0
 40
0
 40
1
 40
1
 40
1
 40
1
 10
100.306425
 20
204.680692
 30
0.0
 10
100.306425
 20
204.945911
 30
0.0
 10
100.201065
 20
205.200268
 30
0.0
 10
100.013525
 20
205.387805
 30
0.0
  0
SPLINE
  5
10c
100
AcDbEntity
  8
Layer_1
 62
7
100
AcDbSpline
 70
8
 71
3
 72
8
 73
4
 74
0
 40
0
 40
0
 40
0
 40
0
 40
1
 40
1
 40
1
 40
1
 10
100.013525
 20
205.387805
 30
0.0
 10
99.825984
 20
205.575342
 30
0.0
 10
99.571625
 20
205.680697
 30
0.0
 10
99.306405
 20
205.680692
 30
0.0
  0
LINE
  5
10d
100
AcDbEntity
  8
Layer_1
 62
7
100
AcDbLine
 10
99.306405
 20
205.680692
 30
0.0
 11
93.166405
 21
205.680692
 31
0.0
  0
SPLINE
  5
10e
100
AcDbEntity
  8
Layer_1
 62
7
100
AcDbSpline
 70
8
 71
3
 72
8
 73
4
 74
0
 40
0
 40
0
 40
0
 40
0
 40
1
 40
1
 40
1
 40
1
 10
93.166405
 20
205.680692
 30
0.0
 10
92.901189
 20
205.680692
 30
0.0
 10
92.646835
 20
205.575335
 30
0.0
 10
92.459298
 20
205.387798
 30
0.0
  0
SPLINE
  5
10f
100
AcDbEntity
  8
Layer_1
 62
7
100
AcDbSpline
 70
8
 71
3
 72
8
 73
4
 74
0
 40
0
 40
0
 40
0
 40
0
 40
1
 40
1
 40
1
 40
1
 10
92.459298
 20
205.387798
 30
0.0
 10
92.271762
 20
205.200262
 30
0.0
 10
92.166405
 20
204.945908
 30
0.0
 10
92.166405
 20
204.680692
 30
0.0
  0
LINE
  5
110
100
AcDbEntity
  8
Layer_1
 62
7
100
AcDbLine
 10
92.166405
 20
204.680692
 30
0.0
 11
92.166405
 21
199.060682
 31
0.0
  0
SPLINE
  5
111
100
AcDbEntity
  8
Layer_1
 62
7
100
AcDbSpline
 70
8
 71
3
 72
8
 73
4
 74
0
 40
0
 40
0
 40
0
 40
0
 40
1
 40
1
 40
1
 40
1
 10
92.166460
 20
199.060687
 30
0.0
 10
92.166460
 20
198.508406
 30
0.0
 10
91.718751
 20
198.060692
 30
0.0
 10
91.166470
 20
198.060687
 30
0.0
  0
LINE
  5
112
100
AcDbEntity
  8
Layer_1
 62
7
100
AcDbLine
 10
91.166405
 20
198.060692
 30
0.0
 11
79.809415
 21
198.060692
 31
0.0
  0
SPLINE
  5
113
100
AcDbEntity
  8
Layer_1
 62
7
100
AcDbSpline
 70
8
 71
3
 72
8
 73
4
 74
0
 40
0
 40
0
 40
0
 40
0
 40
1
 40
1
 40
1
 40
1
 10
79.809415
 20
198.060692
 30
0.0
 10
79.544199
 20
198.060692
 30
0.0
 10
79.289845
 20
197.955335
 30
0.0
 10
79.102308
 20
197.767798
 30
0.0
  0
SPLINE
  5
114
100
AcDbEntity
  8
Layer_1
 62
7
100
AcDbSpline
 70
8
 71
3
 72
8
 73
4
 74
0
 40
0
 40
0
 40
0
 40
0
 40
1
 40
1
 40
1
 40
1
 10
79.102308
 20
197.767798
 30
0.0
 10
78.914772
 20
197.580262
 30
0.0
 10
78.809415
 20
197.325908
 30
0.0
 10
78.809415
 20
197.060692
 30
0.0
  0
LINE
  5
115
100
AcDbEntity
  8
Layer_1
 62
7
100
AcDbLine
 10
78.809415
 20
197.060692
 30
0.0
 11
78.809415
 21
185.217682
 31
0.0
  0
SPLINE
  5
116
100
AcDbEntity
  8
Layer_1
 62
7
100
AcDbSpline
 70
8
 71
3
 72
8
 73
4
 74
0
 40
0
 40
0
 40
0
 40
0
 40
1
 40
1
 40
1
 40
1
 10
78.809415
 20
185.217682
 30
0.0
 10
78.809415
 20
184.952465
 30
0.0
 10
78.914772
 20
184.698111
 30
0.0
 10
79.102308
 20
184.510575
 30
0.0
  0
SPLINE
  5
117
100
AcDbEntity
  8
Layer_1
 62
7
100
AcDbSpline
 70
8
 71
3
 72
8
 73
4
 74
0
 40
0
 40
0
 40
0
 40
0
 40
1
 40
1
 40
1
 40
1
 10
79.102308
 20
184.510575
 30
0.0
 10
79.289845
 20
184.323038
 30
0.0
 10
79.544199
 20
184.217682
 30
0.0
 10
79.809415
 20
184.217682
 30
0.0
  0
LINE
  5
118
100
AcDbEntity
  8
Layer_1
 62
7
100
AcDbLine
 10
79.809415
 20
184.217682
 30
0.0
 11
86.086405
 21
184.217682
 31
0.0
  0
SPLINE
  5
119
100
AcDbEntity
  8
Layer_1
 62
7
100
AcDbSpline
 70
8
 71
3
 72
8
 73
4
 74
0
 40
0
 40
0
 40
0
 40
0
 40
1
 40
1
 40
1
 40
1
 10
86.086725
 20
184.217682
 30
0.0
 10
86.351941
 20
184.217682
 30
0.0
 10
86.606295
 20
184.112325
 30
0.0
 10
86.793832
 20
183.924788
 30
0.0
  0
SPLINE
  5
11a
100
AcDbEntity
  8
Layer_1
 62
7
100
AcDbSpline
 70
8
 71
3
 72
8
 73
4
 74
0
 40
0
 40
0
 40
0
 40
0
 40
1
 40
1
 40
1
 40
1
 10
86.793832
 20
183.924788
 30
0.0
 10
86.981368
 20
183.737252
 30
0.0
 10
87.086725
 20
183.482898
 30
0.0
 10
87.086725
 20
183.217682
 30
0.0
  0
LINE
  5
11b
100
AcDbEntity
  8
Layer_1
 62
7
100
AcDbLine
 10
87.086405
 20
183.217682
 30
0.0
 11
87.086405
 21
177.820682
 31
0.0
  0
SPLINE
  5
11c
100
AcDbEntity
  8
Layer_1
 62
7
100
AcDbSpline
 70
8
 71
3
 72
8
 73
4
 74
0
 40
0
 40
0
 40
0
 40
0
 40
1
 40
1
 40
1
 40
1
 10
87.086405
 20
177.820682
 30
0.0
 10
87.086405
 20
177.555465
 30
0.0
 10
87.191762
 20
177.301111
 30
0.0
 10
87.379298
 20
177.113575
 30
0.0
  0
SPLINE
  5
11d
100
AcDbEntity
  8
Layer_1
 62
7
100
AcDbSpline
 70
8
 71
3
 72
8
 73
4
 74
0
 40
0
 40
0
 40
0
 40
0
 40
1
 40
1
 40
1
 40
1
 10
87.379298
 20
177.113575
 30
0.0
 10
87.566835
 20
176.926038
 30
0.0
 10
87.821189
 20
176.820682
 30
0.0
 10
88.086405
 20
176.820682
 30
0.0
  0
LINE
  5
11e
100
AcDbEntity
  8
Layer_1
 62
7
100
AcDbLine
 10
100.306425
 20
246.400692
 30
0.0
 11
100.306425
 21
255.480692
 31
0.0
  0
SPLINE
  5
11f
100
AcDbEntity
  8
Layer_1
 62
7
100
AcDbSpline
 70
8
 71
3
 72
8
 73
4
 74
0
 40
0
 40
0
 40
0
 40
0
 40
1
 40
1
 40
1
 40
1
 10
100.306425
 20
255.480692
 30
0.0
 10
100.306425
 20
255.745911
 30
0.0
 10
100.201065
 20
256.000268
 30
0.0
 10
100.013525
 20
256.187805
 30
0.0
  0
SPLINE
  5
120
100
AcDbEntity
  8
Layer_1
 62
7
100
AcDbSpline
 70
8
 71
3
 72
8
 73
4
 74
0
 40
0
 40
0
 40
0
 40
0
 40
1
 40
1
 40
1
 40
1
 10
100.013525
 20
256.187805
 30
0.0
 10
99.825984
 20
256.375342
 30
0.0
 10
99.571625
 20
256.480697
 30
0.0
 10
99.306405
 20
256.480692
 30
0.0
  0
LINE
  5
121
100
AcDbEntity
  8
Layer_1
 62
7
100
AcDbLine
 10
99.306405
 20
256.480692
 30
0.0
 11
93.166405
 21
256.480692
 31
0.0
  0
SPLINE
  5
122
100
AcDbEntity
  8
Layer_1
 62
7
100
AcDbSpline
 70
8
 71
3
 72
8
 73
4
 74
0
 40
0
 40
0
 40
0
 40
0
 40
1
 40
1
 40
1
 40
1
 10
93.166405
 20
256.480692
 30
0.0
 10
92.901189
 20
256.480692
 30
0.0
 10
92.646835
 20
256.375335
 30
0.0
 10
92.459298
 20
256.187798
 30
0.0
  0
SPLINE
  5
123
100
AcDbEntity
  8
Layer_1
 62
7
100
AcDbSpline
 70
8
 71
3
 72
8
 73
4
 74
0
 40
0
 40
0
 40
0
 40
0
 40
1
 40
1
 40
1
 40
1
 10
92.459298
 20
256.187798
 30
0.0
 10
92.271762
 20
256.000262
 30
0.0
 10
92.166405
 20
255.745908
 30
0.0
 10
92.166405
 20
255.480692
 30
0.0
  0
LINE
  5
124
100
AcDbEntity
  8
Layer_1
 62
7
100
AcDbLine
 10
92.166405
 20
255.480692
 30
0.0
 11
92.166405
 21
246.400692
 31
0.0
  0
SPLINE
  5
125
100
AcDbEntity
  8
Layer_1
 62
7
100
AcDbSpline
 70
8
 71
3
 72
8
 73
4
 74
0
 40
0
 40
0
 40
0
 40
0
 40
1
 40
1
 40
1
 40
1
 10
92.166405
 20
246.400692
 30
0.0
 10
92.166405
 20
246.135475
 30
0.0
 10
92.271762
 20
245.881121
 30
0.0
 10
92.459298
 20
245.693585
 30
0.0
  0
SPLINE
  5
126
100
AcDbEntity
  8
Layer_1
 62
7
100
AcDbSpline
 70
8
 71
3
 72
8
 73
4
 74
0
 40
0
 40
0
 40
0
 40
0
 40
1
 40
1
 40
1
 40
1
 10
92.459298
 20
245.693585
 30
0.0
 10
92.646835
 20
245.506048
 30
0.0
 10
92.901189
 20
245.400692
 30
0.0
 10
93.166405
 20
245.400692
 30
0.0
  0
LINE
  5
127
100
AcDbEntity
  8
Layer_1
 62
7
100
AcDbLine
 10
93.166405
 20
245.400692
 30
0.0
 11
99.306405
 21
245.400692
 31
0.0
  0
SPLINE
  5
128
100
AcDbEntity
  8
Layer_1
 62
7
100
AcDbSpline
 70
8
 71
3
 72
8
 73
4
 74
0
 40
0
 40
0
 40
0
 40
0
 40
1
 40
1
 40
1
 40
1
 10
99.306405
 20
245.400692
 30
0.0
 10
99.571625
 20
245.400686
 30
0.0
 10
99.825984
 20
245.506041
 30
0.0
 10
100.013525
 20
245.693578
 30
0.0
  0
SPLINE
  5
129
100
AcDbEntity
  8
Layer_1
 62
7
100
AcDbSpline
 70
8
 71
3
 72
8
 73
4
 74
0
 40
0
 40
0
 40
0
 40
0
 40
1
 40
1
 40
1
 40
1
 10
100.013525
 20
245.693578
 30
0.0
 10
100.201065
 20
245.881115
 30
0.0
 10
100.306425
 20
246.135472
 30
0.0
 10
100.306425
 20
246.400692
 30
0.0
  0
SPLINE
  5
12a
100
AcDbEntity
  8
Layer_1
 62
7
100
AcDbSpline
 70
8
 71
3
 72
8
 73
4
 74
0
 40
0
 40
0
 40
0
 40
0
 40
1
 40
1
 40
1
 40
1
 10
98.856450
 20
274.550692
 30
0.0
 10
99.739168
 20
274.552016
 30
0.0
 10
100.454051
 20
275.267972
 30
0.0
 10
100.454051
 20
276.150692
 30
0.0
  0
SPLINE
  5
12b
100
AcDbEntity
  8
Layer_1
 62
7
100
AcDbSpline
 70
8
 71
3
 72
8
 73
4
 74
0
 40
0
 40
0
 40
0
 40
0
 40
1
 40
1
 40
1
 40
1
 10
100.454051
 20
276.150692
 30
0.0
 10
100.454051
 20
277.033411
 30
0.0
 10
99.739168
 20
277.749367
 30
0.0
 10
98.856450
 20
277.750691
 30
0.0
  0
SPLINE
  5
12c
100
AcDbEntity
  8
Layer_1
 62
7
100
AcDbSpline
 70
8
 71
3
 72
8
 73
4
 74
0
 40
0
 40
0
 40
0
 40
0
 40
1
 40
1
 40
1
 40
1
 10
98.856450
 20
277.750691
 30
0.0
 10
98.284254
 20
277.751549
 30
0.0
 10
97.755155
 20
277.446779
 30
0.0
 10
97.468808
 20
276.951385
 30
0.0
  0
SPLINE
  5
12d
100
AcDbEntity
  8
Layer_1
 62
7
100
AcDbSpline
 70
8
 71
3
 72
8
 73
4
 74
0
 40
0
 40
0
 40
0
 40
0
 40
1
 40
1
 40
1
 40
1
 10
97.468808
 20
276.951385
 30
0.0
 10
97.182462
 20
276.455991
 30
0.0
 10
97.182462
 20
275.845392
 30
0.0
 10
97.468808
 20
275.349998
 30
0.0
  0
SPLINE
  5
12e
100
AcDbEntity
  8
Layer_1
 62
7
100
AcDbSpline
 70
8
 71
3
 72
8
 73
4
 74
0
 40
0
 40
0
 40
0
 40
0
 40
1
 40
1
 40
1
 40
1
 10
97.468808
 20
275.349998
 30
0.0
 10
97.755155
 20
274.854604
 30
0.0
 10
98.284254
 20
274.549834
 30
0.0
 10
98.856450
 20
274.550692
 30
0.0
  0
LINE
  5
12f
100
AcDbEntity
  8
Layer_1
 62
7
100
AcDbLine
 10
98.856450
 20
274.550692
 30
0.0
 11
98.856450
 21
274.550692
 31
0.0
  0
SPLINE
  5
130
100
AcDbEntity
  8
Layer_1
 62
7
100
AcDbSpline
 70
8
 71
3
 72
8
 73
4
 74
0
 40
0
 40
0
 40
0
 40
0
 40
1
 40
1
 40
1
 40
1
 10
31.856422
 20
274.550692
 30
0.0
 10
32.739140
 20
274.552016
 30
0.0
 10
33.454023
 20
275.267972
 30
0.0
 10
33.454023
 20
276.150692
 30
0.0
  0
SPLINE
  5
131
100
AcDbEntity
  8
Layer_1
 62
7
100
AcDbSpline
 70
8
 71
3
 72
8
 73
4
 74
0
 40
0
 40
0
 40
0
 40
0
 40
1
 40
1
 40
1
 40
1
 10
33.454023
 20
276.150692
 30
0.0
 10
33.454023
 20
277.033411
 30
0.0
 10
32.739140
 20
277.749367
 30
0.0
 10
31.856422
 20
277.750691
 30
0.0
  0
SPLINE
  5
132
100
AcDbEntity
  8
Layer_1
 62
7
100
AcDbSpline
 70
8
 71
3
 72
8
 73
4
 74
0
 40
0
 40
0
 40
0
 40
0
 40
1
 40
1
 40
1
 40
1
 10
31.856422
 20
277.750691
 30
0.0
 10
31.284226
 20
277.751549
 30
0.0
 10
30.755127
 20
277.446779
 30
0.0
 10
30.468780
 20
276.951385
 30
0.0
  0
SPLINE
  5
133
100
AcDbEntity
  8
Layer_1
 62
7
100
AcDbSpline
 70
8
 71
3
 72
8
 73
4
 74
0
 40
0
 40
0
 40
0
 40
0
 40
1
 40
1
 40
1
 40
1
 10
30.468780
 20
276.951385
 30
0.0
 10
30.182434
 20
276.455991
 30
0.0
 10
30.182434
 20
275.845392
 30
0.0
 10
30.468780
 20
275.349998
 30
0.0
  0
SPLINE
  5
134
100
AcDbEntity
  8
Layer_1
 62
7
100
AcDbSpline
 70
8
 71
3
 72
8
 73
4
 74
0
 40
0
 40
0
 40
0
 40
0
 40
1
 40
1
 40
1
 40
1
 10
30.468780
 20
275.349998
 30
0.0
 10
30.755127
 20
274.854604
 30
0.0
 10
31.284226
 20
274.549834
 30
0.0
 10
31.856422
 20
274.550692
 30
0.0
  0
LINE
  5
135
100
AcDbEntity
  8
Layer_1
 62
7
100
AcDbLine
 10
31.856422
 20
274.550692
 30
0.0
 11
31.856422
 21
274.550692
 31
0.0
  0
LINE
  5
136
100
AcDbEntity
  8
Layer_1
 62
7
100
AcDbLine
 10
72.306425
 20
258.020692
 30
0.0
 11
72.306425
 21
254.940692
 31
0.0
  0
SPLINE
  5
137
100
AcDbEntity
  8
Layer_1
 62
7
100
AcDbSpline
 70
8
 71
3
 72
8
 73
4
 74
0
 40
0
 40
0
 40
0
 40
0
 40
1
 40
1
 40
1
 40
1
 10
72.306472
 20
254.940702
 30
0.0
 10
72.306477
 20
254.675482
 30
0.0
 10
72.201123
 20
254.421122
 30
0.0
 10
72.013586
 20
254.233582
 30
0.0
  0
SPLINE
  5
138
100
AcDbEntity
  8
Layer_1
 62
7
100
AcDbSpline
 70
8
 71
3
 72
8
 73
4
 74
0
 40
0
 40
0
 40
0
 40
0
 40
1
 40
1
 40
1
 40
1
 10
72.013586
 20
254.233582
 30
0.0
 10
71.826049
 20
254.046041
 30
0.0
 10
71.571692
 20
253.940682
 30
0.0
 10
71.306472
 20
253.940682
 30
0.0
  0
LINE
  5
139
100
AcDbEntity
  8
Layer_1
 62
7
100
AcDbLine
 10
71.306405
 20
253.940692
 30
0.0
 11
70.306405
 21
253.940692
 31
0.0
  0
SPLINE
  5
13a
100
AcDbEntity
  8
Layer_1
 62
7
100
AcDbSpline
 70
8
 71
3
 72
8
 73
4
 74
0
 40
0
 40
0
 40
0
 40
0
 40
1
 40
1
 40
1
 40
1
 10
70.306405
 20
253.940692
 30
0.0
 10
70.041189
 20
253.940692
 30
0.0
 10
69.786835
 20
253.835335
 30
0.0
 10
69.599298
 20
253.647798
 30
0.0
  0
SPLINE
  5
13b
100
AcDbEntity
  8
Layer_1
 62
7
100
AcDbSpline
 70
8
 71
3
 72
8
 73
4
 74
0
 40
0
 40
0
 40
0
 40
0
 40
1
 40
1
 40
1
 40
1
 10
69.599298
 20
253.647798
 30
0.0
 10
69.411762
 20
253.460262
 30
0.0
 10
69.306405
 20
253.205908
 30
0.0
 10
69.306405
 20
252.940692
 30
0.0
  0
LINE
  5
13c
100
AcDbEntity
  8
Layer_1
 62
7
100
AcDbLine
 10
69.306405
 20
252.940692
 30
0.0
 11
69.306405
 21
231.160692
 31
0.0
  0
SPLINE
  5
13d
100
AcDbEntity
  8
Layer_1
 62
7
100
AcDbSpline
 70
8
 71
3
 72
8
 73
4
 74
0
 40
0
 40
0
 40
0
 40
0
 40
1
 40
1
 40
1
 40
1
 10
69.306405
 20
231.160692
 30
0.0
 10
69.306405
 20
230.895475
 30
0.0
 10
69.411762
 20
230.641121
 30
0.0
 10
69.599298
 20
230.453585
 30
0.0
  0
SPLINE
  5
13e
100
AcDbEntity
  8
Layer_1
 62
7
100
AcDbSpline
 70
8
 71
3
 72
8
 73
4
 74
0
 40
0
 40
0
 40
0
 40
0
 40
1
 40
1
 40
1
 40
1
 10
69.599298
 20
230.453585
 30
0.0
 10
69.786835
 20
230.266048
 30
0.0
 10
70.041189
 20
230.160692
 30
0.0
 10
70.306405
 20
230.160692
 30
0.0
  0
LINE
  5
13f
100
AcDbEntity
  8
Layer_1
 62
7
100
AcDbLine
 10
70.306405
 20
230.160692
 30
0.0
 11
76.846425
 21
230.160692
 31
0.0
  0
SPLINE
  5
140
100
AcDbEntity
  8
Layer_1
 62
7
100
AcDbSpline
 70
8
 71
3
 72
8
 73
4
 74
0
 40
0
 40
0
 40
0
 40
0
 40
1
 40
1
 40
1
 40
1
 10
76.846425
 20
230.160692
 30
0.0
 10
77.111641
 20
230.160692
 30
0.0
 10
77.365995
 20
230.266048
 30
0.0
 10
77.553532
 20
230.453585
 30
0.0
  0
SPLINE
  5
141
100
AcDbEntity
  8
Layer_1
 62
7
100
AcDbSpline
 70
8
 71
3
 72
8
 73
4
 74
0
 40
0
 40
0
 40
0
 40
0
 40
1
 40
1
 40
1
 40
1
 10
77.553532
 20
230.453585
 30
0.0
 10
77.741068
 20
230.641121
 30
0.0
 10
77.846425
 20
230.895475
 30
0.0
 10
77.846425
 20
231.160692
 30
0.0
  0
LINE
  5
142
100
AcDbEntity
  8
Layer_1
 62
7
100
AcDbLine
 10
77.846425
 20
231.160692
 30
0.0
 11
77.846425
 21
252.020692
 31
0.0
  0
SPLINE
  5
143
100
AcDbEntity
  8
Layer_1
 62
7
100
AcDbSpline
 70
8
 71
3
 72
8
 73
4
 74
0
 40
0
 40
0
 40
0
 40
0
 40
1
 40
1
 40
1
 40
1
 10
77.846361
 20
252.020697
 30
0.0
 10
77.846367
 20
252.572977
 30
0.0
 10
78.294080
 20
253.020687
 30
0.0
 10
78.846361
 20
253.020687
 30
0.0
  0
LINE
  5
144
100
AcDbEntity
  8
Layer_1
 62
7
100
AcDbLine
 10
78.846415
 20
253.020692
 30
0.0
 11
79.386425
 21
253.020692
 31
0.0
  0
SPLINE
  5
145
100
AcDbEntity
  8
Layer_1
 62
7
100
AcDbSpline
 70
8
 71
3
 72
8
 73
4
 74
0
 40
0
 40
0
 40
0
 40
0
 40
1
 40
1
 40
1
 40
1
 10
79.386425
 20
253.020692
 30
0.0
 10
79.651641
 20
253.020692
 30
0.0
 10
79.905995
 20
253.126048
 30
0.0
 10
80.093532
 20
253.313585
 30
0.0
  0
SPLINE
  5
146
100
AcDbEntity
  8
Layer_1
 62
7
100
AcDbSpline
 70
8
 71
3
 72
8
 73
4
 74
0
 40
0
 40
0
 40
0
 40
0
 40
1
 40
1
 40
1
 40
1
 10
80.093532
 20
253.313585
 30
0.0
 10
80.281068
 20
253.501121
 30
0.0
 10
80.386425
 20
253.755475
 30
0.0
 10
80.386425
 20
254.020692
 30
0.0
  0
LINE
  5
147
100
AcDbEntity
  8
Layer_1
 62
7
100
AcDbLine
 10
80.386425
 20
254.020692
 30
0.0
 11
80.386425
 21
258.020692
 31
0.0
  0
SPLINE
  5
148
100
AcDbEntity
  8
Layer_1
 62
7
100
AcDbSpline
 70
8
 71
3
 72
8
 73
4
 74
0
 40
0
 40
0
 40
0
 40
0
 40
1
 40
1
 40
1
 40
1
 10
80.386425
 20
258.020692
 30
0.0
 10
80.386425
 20
258.285908
 30
0.0
 10
80.281068
 20
258.540262
 30
0.0
 10
80.093532
 20
258.727798
 30
0.0
  0
SPLINE
  5
149
100
AcDbEntity
  8
Layer_1
 62
7
100
AcDbSpline
 70
8
 71
3
 72
8
 73
4
 74
0
 40
0
 40
0
 40
0
 40
0
 40
1
 40
1
 40
1
 40
1
 10
80.093532
 20
258.727798
 30
0.0
 10
79.905995
 20
258.915335
 30
0.0
 10
79.651641
 20
259.020692
 30
0.0
 10
79.386425
 20
259.020692
 30
0.0
  0
LINE
  5
14a
100
AcDbEntity
  8
Layer_1
 62
7
100
AcDbLine
 10
79.386425
 20
259.020692
 30
0.0
 11
73.306425
 21
259.020692
 31
0.0
  0
SPLINE
  5
14b
100
AcDbEntity
  8
Layer_1
 62
7
100
AcDbSpline
 70
8
 71
3
 72
8
 73
4
 74
0
 40
0
 40
0
 40
0
 40
0
 40
1
 40
1
 40
1
 40
1
 10
73.306425
 20
259.020692
 30
0.0
 10
73.041209
 20
259.020692
 30
0.0
 10
72.786855
 20
258.915335
 30
0.0
 10
72.599318
 20
258.727798
 30
0.0
  0
SPLINE
  5
14c
100
AcDbEntity
  8
Layer_1
 62
7
100
AcDbSpline
 70
8
 71
3
 72
8
 73
4
 74
0
 40
0
 40
0
 40
0
 40
0
 40
1
 40
1
 40
1
 40
1
 10
72.599318
 20
258.727798
 30
0.0
 10
72.411782
 20
258.540262
 30
0.0
 10
72.306425
 20
258.285908
 30
0.0
 10
72.306425
 20
258.020692
 30
0.0
  0
LINE
  5
14d
100
AcDbEntity
  8
Layer_1
 62
7
100
AcDbLine
 10
43.906405
 20
219.920692
 30
0.0
 11
43.906405
 21
213.380692
 31
0.0
  0
SPLINE
  5
14e
100
AcDbEntity
  8
Layer_1
 62
7
100
AcDbSpline
 70
8
 71
3
 72
8
 73
4
 74
0
 40
0
 40
0
 40
0
 40
0
 40
1
 40
1
 40
1
 40
1
 10
43.906405
 20
213.380692
 30
0.0
 10
43.906402
 20
213.115473
 30
0.0
 10
44.011758
 20
212.861117
 30
0.0
 10
44.199295
 20
212.673578
 30
0.0
  0
SPLINE
  5
14f
100
AcDbEntity
  8
Layer_1
 62
7
100
AcDbSpline
 70
8
 71
3
 72
8
 73
4
 74
0
 40
0
 40
0
 40
0
 40
0
 40
1
 40
1
 40
1
 40
1
 10
44.199295
 20
212.673578
 30
0.0
 10
44.386831
 20
212.486040
 30
0.0
 10
44.641187
 20
212.380682
 30
0.0
 10
44.906405
 20
212.380682
 30
0.0
  0
LINE
  5
150
100
AcDbEntity
  8
Layer_1
 62
7
100
AcDbLine
 10
44.906405
 20
212.380682
 30
0.0
 11
65.766405
 21
212.380682
 31
0.0
  0
SPLINE
  5
151
100
AcDbEntity
  8
Layer_1
 62
7
100
AcDbSpline
 70
8
 71
3
 72
8
 73
4
 74
0
 40
0
 40
0
 40
0
 40
0
 40
1
 40
1
 40
1
 40
1
 10
65.767171
 20
212.380687
 30
0.0
 10
66.319452
 20
212.380681
 30
0.0
 10
66.767161
 20
211.932967
 30
0.0
 10
66.767161
 20
211.380687
 30
0.0
  0
LINE
  5
152
100
AcDbEntity
  8
Layer_1
 62
7
100
AcDbLine
 10
66.766405
 20
211.380692
 30
0.0
 11
66.766405
 21
205.760692
 31
0.0
  0
SPLINE
  5
153
100
AcDbEntity
  8
Layer_1
 62
7
100
AcDbSpline
 70
8
 71
3
 72
8
 73
4
 74
0
 40
0
 40
0
 40
0
 40
0
 40
1
 40
1
 40
1
 40
1
 10
66.766405
 20
205.760692
 30
0.0
 10
66.766402
 20
205.495473
 30
0.0
 10
66.871758
 20
205.241117
 30
0.0
 10
67.059295
 20
205.053578
 30
0.0
  0
SPLINE
  5
154
100
AcDbEntity
  8
Layer_1
 62
7
100
AcDbSpline
 70
8
 71
3
 72
8
 73
4
 74
0
 40
0
 40
0
 40
0
 40
0
 40
1
 40
1
 40
1
 40
1
 10
67.059295
 20
205.053578
 30
0.0
 10
67.246831
 20
204.866040
 30
0.0
 10
67.501187
 20
204.760682
 30
0.0
 10
67.766405
 20
204.760682
 30
0.0
  0
LINE
  5
155
100
AcDbEntity
  8
Layer_1
 62
7
100
AcDbLine
 10
67.766405
 20
204.760682
 30
0.0
 11
71.766425
 21
204.760682
 31
0.0
  0
SPLINE
  5
156
100
AcDbEntity
  8
Layer_1
 62
7
100
AcDbSpline
 70
8
 71
3
 72
8
 73
4
 74
0
 40
0
 40
0
 40
0
 40
0
 40
1
 40
1
 40
1
 40
1
 10
71.766425
 20
204.760682
 30
0.0
 10
72.031643
 20
204.760682
 30
0.0
 10
72.285999
 20
204.866040
 30
0.0
 10
72.473535
 20
205.053578
 30
0.0
  0
SPLINE
  5
157
100
AcDbEntity
  8
Layer_1
 62
7
100
AcDbSpline
 70
8
 71
3
 72
8
 73
4
 74
0
 40
0
 40
0
 40
0
 40
0
 40
1
 40
1
 40
1
 40
1
 10
72.473535
 20
205.053578
 30
0.0
 10
72.661072
 20
205.241117
 30
0.0
 10
72.766428
 20
205.495473
 30
0.0
 10
72.766425
 20
205.760692
 30
0.0
  0
LINE
  5
158
100
AcDbEntity
  8
Layer_1
 62
7
100
AcDbLine
 10
72.766425
 20
205.760692
 30
0.0
 11
72.766425
 21
211.380692
 31
0.0
  0
SPLINE
  5
159
100
AcDbEntity
  8
Layer_1
 62
7
100
AcDbSpline
 70
8
 71
3
 72
8
 73
4
 74
0
 40
0
 40
0
 40
0
 40
0
 40
1
 40
1
 40
1
 40
1
 10
72.766435
 20
211.380692
 30
0.0
 10
72.766441
 20
211.932968
 30
0.0
 10
73.214148
 20
212.380676
 30
0.0
 10
73.766425
 20
212.380682
 30
0.0
  0
LINE
  5
15a
100
AcDbEntity
  8
Layer_1
 62
7
100
AcDbLine
 10
73.766415
 20
212.380682
 30
0.0
 11
74.306425
 21
212.380682
 31
0.0
  0
SPLINE
  5
15b
100
AcDbEntity
  8
Layer_1
 62
7
100
AcDbSpline
 70
8
 71
3
 72
8
 73
4
 74
0
 40
0
 40
0
 40
0
 40
0
 40
1
 40
1
 40
1
 40
1
 10
74.306425
 20
212.380682
 30
0.0
 10
74.571643
 20
212.380682
 30
0.0
 10
74.825999
 20
212.486040
 30
0.0
 10
75.013535
 20
212.673578
 30
0.0
  0
SPLINE
  5
15c
100
AcDbEntity
  8
Layer_1
 62
7
100
AcDbSpline
 70
8
 71
3
 72
8
 73
4
 74
0
 40
0
 40
0
 40
0
 40
0
 40
1
 40
1
 40
1
 40
1
 10
75.013535
 20
212.673578
 30
0.0
 10
75.201072
 20
212.861117
 30
0.0
 10
75.306428
 20
213.115473
 30
0.0
 10
75.306425
 20
213.380692
 30
0.0
  0
LINE
  5
15d
100
AcDbEntity
  8
Layer_1
 62
7
100
AcDbLine
 10
75.306425
 20
213.380692
 30
0.0
 11
75.306425
 21
219.920692
 31
0.0
  0
SPLINE
  5
15e
100
AcDbEntity
  8
Layer_1
 62
7
100
AcDbSpline
 70
8
 71
3
 72
8
 73
4
 74
0
 40
0
 40
0
 40
0
 40
0
 40
1
 40
1
 40
1
 40
1
 10
75.306425
 20
219.920692
 30
0.0
 10
75.306425
 20
220.185908
 30
0.0
 10
75.201068
 20
220.440262
 30
0.0
 10
75.013532
 20
220.627798
 30
0.0
  0
SPLINE
  5
15f
100
AcDbEntity
  8
Layer_1
 62
7
100
AcDbSpline
 70
8
 71
3
 72
8
 73
4
 74
0
 40
0
 40
0
 40
0
 40
0
 40
1
 40
1
 40
1
 40
1
 10
75.013532
 20
220.627798
 30
0.0
 10
74.825995
 20
220.815335
 30
0.0
 10
74.571641
 20
220.920692
 30
0.0
 10
74.306425
 20
220.920692
 30
0.0
  0
LINE
  5
160
100
AcDbEntity
  8
Layer_1
 62
7
100
AcDbLine
 10
74.306425
 20
220.920692
 30
0.0
 11
44.906405
 21
220.920692
 31
0.0
  0
SPLINE
  5
161
100
AcDbEntity
  8
Layer_1
 62
7
100
AcDbSpline
 70
8
 71
3
 72
8
 73
4
 74
0
 40
0
 40
0
 40
0
 40
0
 40
1
 40
1
 40
1
 40
1
 10
44.906405
 20
220.920692
 30
0.0
 10
44.641189
 20
220.920692
 30
0.0
 10
44.386835
 20
220.815335
 30
0.0
 10
44.199298
 20
220.627798
 30
0.0
  0
SPLINE
  5
162
100
AcDbEntity
  8
Layer_1
 62
7
100
AcDbSpline
 70
8
 71
3
 72
8
 73
4
 74
0
 40
0
 40
0
 40
0
 40
0
 40
1
 40
1
 40
1
 40
1
 10
44.199298
 20
220.627798
 30
0.0
 10
44.011762
 20
220.440262
 30
0.0
 10
43.906405
 20
220.185908
 30
0.0
 10
43.906405
 20
219.920692
 30
0.0
  0
LINE
  5
163
100
AcDbEntity
  8
Layer_1
 62
7
100
AcDbLine
 10
46.366425
 20
205.680692
 30
0.0
 11
34.746395
 21
205.680692
 31
0.0
  0
SPLINE
  5
164
100
AcDbEntity
  8
Layer_1
 62
7
100
AcDbSpline
 70
8
 71
3
 72
8
 73
4
 74
0
 40
0
 40
0
 40
0
 40
0
 40
1
 40
1
 40
1
 40
1
 10
34.746395
 20
205.680692
 30
0.0
 10
34.194114
 20
205.680686
 30
0.0
 10
33.746405
 20
205.232973
 30
0.0
 10
33.746405
 20
204.680692
 30
0.0
  0
LINE
  5
165
100
AcDbEntity
  8
Layer_1
 62
7
100
AcDbLine
 10
33.746405
 20
204.680692
 30
0.0
 11
33.746405
 21
170.200682
 31
0.0
  0
SPLINE
  5
166
100
AcDbEntity
  8
Layer_1
 62
7
100
AcDbSpline
 70
8
 71
3
 72
8
 73
4
 74
0
 40
0
 40
0
 40
0
 40
0
 40
1
 40
1
 40
1
 40
1
 10
33.746405
 20
170.200682
 30
0.0
 10
33.746405
 20
169.648402
 30
0.0
 10
34.194114
 20
169.200692
 30
0.0
 10
34.746395
 20
169.200682
 30
0.0
  0
LINE
  5
167
100
AcDbEntity
  8
Layer_1
 62
7
100
AcDbLine
 10
34.746395
 20
169.200682
 30
0.0
 11
40.886395
 21
169.200682
 31
0.0
  0
SPLINE
  5
168
100
AcDbEntity
  8
Layer_1
 62
7
100
AcDbSpline
 70
8
 71
3
 72
8
 73
4
 74
0
 40
0
 40
0
 40
0
 40
0
 40
1
 40
1
 40
1
 40
1
 10
40.886395
 20
169.200682
 30
0.0
 10
41.438691
 20
169.200662
 30
0.0
 10
41.886392
 20
169.648382
 30
0.0
 10
41.891592
 20
170.208982
 30
0.0
  0
LINE
  5
169
100
AcDbEntity
  8
Layer_1
 62
7
100
AcDbLine
 10
41.891592
 20
170.208982
 30
0.0
 11
41.896792
 21
181.176732
 31
0.0
  0
SPLINE
  5
16a
100
AcDbEntity
  8
Layer_1
 62
7
100
AcDbSpline
 70
8
 71
3
 72
8
 73
4
 74
0
 40
0
 40
0
 40
0
 40
0
 40
1
 40
1
 40
1
 40
1
 10
41.896792
 20
181.176732
 30
0.0
 10
41.896798
 20
181.729012
 30
0.0
 10
42.344511
 20
182.176522
 30
0.0
 10
42.896775
 20
182.185522
 30
0.0
  0
LINE
  5
16b
100
AcDbEntity
  8
Layer_1
 62
7
100
AcDbLine
 10
42.896775
 20
182.185522
 30
0.0
 11
42.896758
 21
182.176522
 31
0.0
  0
LINE
  5
16c
100
AcDbEntity
  8
Layer_1
 62
7
100
AcDbLine
 10
42.896758
 20
182.176522
 30
0.0
 11
51.153967
 21
182.176522
 31
0.0
  0
SPLINE
  5
16d
100
AcDbEntity
  8
Layer_1
 62
7
100
AcDbSpline
 70
8
 71
3
 72
8
 73
4
 74
0
 40
0
 40
0
 40
0
 40
0
 40
1
 40
1
 40
1
 40
1
 10
51.153967
 20
182.176522
 30
0.0
 10
51.706249
 20
182.176522
 30
0.0
 10
52.153962
 20
182.624232
 30
0.0
 10
52.153968
 20
183.176612
 30
0.0
  0
LINE
  5
16e
100
AcDbEntity
  8
Layer_1
 62
7
100
AcDbLine
 10
52.153968
 20
183.176612
 30
0.0
 11
52.153969
 21
191.624891
 31
0.0
  0
SPLINE
  5
16f
100
AcDbEntity
  8
Layer_1
 62
7
100
AcDbSpline
 70
8
 71
3
 72
8
 73
4
 74
0
 40
0
 40
0
 40
0
 40
0
 40
1
 40
1
 40
1
 40
1
 10
52.153969
 20
191.624891
 30
0.0
 10
52.153969
 20
192.177171
 30
0.0
 10
51.706260
 20
192.624884
 30
0.0
 10
51.153979
 20
192.624890
 30
0.0
  0
LINE
  5
170
100
AcDbEntity
  8
Layer_1
 62
7
100
AcDbLine
 10
51.153979
 20
192.624890
 30
0.0
 11
48.366405
 21
192.624890
 31
0.0
  0
SPLINE
  5
171
100
AcDbEntity
  8
Layer_1
 62
7
100
AcDbSpline
 70
8
 71
3
 72
8
 73
4
 74
0
 40
0
 40
0
 40
0
 40
0
 40
1
 40
1
 40
1
 40
1
 10
48.366405
 20
192.624890
 30
0.0
 10
47.814124
 20
192.624896
 30
0.0
 10
47.366415
 20
193.072609
 30
0.0
 10
47.366415
 20
193.624890
 30
0.0
  0
LINE
  5
172
100
AcDbEntity
  8
Layer_1
 62
7
100
AcDbLine
 10
47.366415
 20
193.624890
 30
0.0
 11
47.366415
 21
204.680692
 31
0.0
  0
SPLINE
  5
173
100
AcDbEntity
  8
Layer_1
 62
7
100
AcDbSpline
 70
8
 71
3
 72
8
 73
4
 74
0
 40
0
 40
0
 40
0
 40
0
 40
1
 40
1
 40
1
 40
1
 10
47.366415
 20
204.680692
 30
0.0
 10
47.366415
 20
205.232973
 30
0.0
 10
46.918706
 20
205.680686
 30
0.0
 10
46.366425
 20
205.680692
 30
0.0
  0
SPLINE
  5
174
100
AcDbEntity
  8
Layer_1
 62
7
100
AcDbSpline
 70
8
 71
3
 72
8
 73
4
 74
0
 40
0
 40
0
 40
0
 40
0
 40
1
 40
1
 40
1
 40
1
 10
31.856422
 20
162.550600
 30
0.0
 10
32.428237
 20
162.550314
 30
0.0
 10
32.956739
 20
162.855210
 30
0.0
 10
33.242729
 20
163.350369
 30
0.0
  0
SPLINE
  5
175
100
AcDbEntity
  8
Layer_1
 62
7
100
AcDbSpline
 70
8
 71
3
 72
8
 73
4
 74
0
 40
0
 40
0
 40
0
 40
0
 40
1
 40
1
 40
1
 40
1
 10
33.242729
 20
163.350369
 30
0.0
 10
33.528720
 20
163.845528
 30
0.0
 10
33.528720
 20
164.455672
 30
0.0
 10
33.242729
 20
164.950831
 30
0.0
  0
SPLINE
  5
176
100
AcDbEntity
  8
Layer_1
 62
7
100
AcDbSpline
 70
8
 71
3
 72
8
 73
4
 74
0
 40
0
 40
0
 40
0
 40
0
 40
1
 40
1
 40
1
 40
1
 10
33.242729
 20
164.950831
 30
0.0
 10
32.956739
 20
165.445990
 30
0.0
 10
32.428237
 20
165.750886
 30
0.0
 10
31.856422
 20
165.750600
 30
0.0
  0
SPLINE
  5
177
100
AcDbEntity
  8
Layer_1
 62
7
100
AcDbSpline
 70
8
 71
3
 72
8
 73
4
 74
0
 40
0
 40
0
 40
0
 40
0
 40
1
 40
1
 40
1
 40
1
 10
31.856422
 20
165.750600
 30
0.0
 10
31.284607
 20
165.750886
 30
0.0
 10
30.756105
 20
165.445990
 30
0.0
 10
30.470115
 20
164.950831
 30
0.0
  0
SPLINE
  5
178
100
AcDbEntity
  8
Layer_1
 62
7
100
AcDbSpline
 70
8
 71
3
 72
8
 73
4
 74
0
 40
0
 40
0
 40
0
 40
0
 40
1
 40
1
 40
1
 40
1
 10
30.470115
 20
164.950831
 30
0.0
 10
30.184124
 20
164.455672
 30
0.0
 10
30.184124
 20
163.845528
 30
0.0
 10
30.470115
 20
163.350369
 30
0.0
  0
SPLINE
  5
179
100
AcDbEntity
  8
Layer_1
 62
7
100
AcDbSpline
 70
8
 71
3
 72
8
 73
4
 74
0
 40
0
 40
0
 40
0
 40
0
 40
1
 40
1
 40
1
 40
1
 10
30.470115
 20
163.350369
 30
0.0
 10
30.756105
 20
162.855210
 30
0.0
 10
31.284607
 20
162.550314
 30
0.0
 10
31.856422
 20
162.550600
 30
0.0
  0
LINE
  5
17a
100
AcDbEntity
  8
Layer_1
 62
7
100
AcDbLine
 10
31.856422
 20
162.550600
 30
0.0
 11
31.856422
 21
162.550600
 31
0.0
  0
LINE
  5
17b
100
AcDbEntity
  8
Layer_1
 62
7
100
AcDbLine
 10
44.306425
 20
171.660682
 30
0.0
 11
44.306425
 21
165.120682
 31
0.0
  0
SPLINE
  5
17c
100
AcDbEntity
  8
Layer_1
 62
7
100
AcDbSpline
 70
8
 71
3
 72
8
 73
4
 74
0
 40
0
 40
0
 40
0
 40
0
 40
1
 40
1
 40
1
 40
1
 10
44.306425
 20
165.120682
 30
0.0
 10
44.306425
 20
164.855465
 30
0.0
 10
44.411782
 20
164.601111
 30
0.0
 10
44.599318
 20
164.413575
 30
0.0
  0
SPLINE
  5
17d
100
AcDbEntity
  8
Layer_1
 62
7
100
AcDbSpline
 70
8
 71
3
 72
8
 73
4
 74
0
 40
0
 40
0
 40
0
 40
0
 40
1
 40
1
 40
1
 40
1
 10
44.599318
 20
164.413575
 30
0.0
 10
44.786855
 20
164.226038
 30
0.0
 10
45.041209
 20
164.120682
 30
0.0
 10
45.306425
 20
164.120682
 30
0.0
  0
LINE
  5
17e
100
AcDbEntity
  8
Layer_1
 62
7
100
AcDbLine
 10
45.306425
 20
164.120682
 30
0.0
 11
74.306425
 21
164.120682
 31
0.0
  0
SPLINE
  5
17f
100
AcDbEntity
  8
Layer_1
 62
7
100
AcDbSpline
 70
8
 71
3
 72
8
 73
4
 74
0
 40
0
 40
0
 40
0
 40
0
 40
1
 40
1
 40
1
 40
1
 10
74.306425
 20
164.120682
 30
0.0
 10
74.571641
 20
164.120682
 30
0.0
 10
74.825995
 20
164.226038
 30
0.0
 10
75.013532
 20
164.413575
 30
0.0
  0
SPLINE
  5
180
100
AcDbEntity
  8
Layer_1
 62
7
100
AcDbSpline
 70
8
 71
3
 72
8
 73
4
 74
0
 40
0
 40
0
 40
0
 40
0
 40
1
 40
1
 40
1
 40
1
 10
75.013532
 20
164.413575
 30
0.0
 10
75.201068
 20
164.601111
 30
0.0
 10
75.306425
 20
164.855465
 30
0.0
 10
75.306425
 20
165.120682
 30
0.0
  0
LINE
  5
181
100
AcDbEntity
  8
Layer_1
 62
7
100
AcDbLine
 10
75.306425
 20
165.120682
 30
0.0
 11
75.306425
 21
171.660682
 31
0.0
  0
SPLINE
  5
182
100
AcDbEntity
  8
Layer_1
 62
7
100
AcDbSpline
 70
8
 71
3
 72
8
 73
4
 74
0
 40
0
 40
0
 40
0
 40
0
 40
1
 40
1
 40
1
 40
1
 10
75.306425
 20
171.660682
 30
0.0
 10
75.306425
 20
171.925898
 30
0.0
 10
75.201068
 20
172.180252
 30
0.0
 10
75.013532
 20
172.367788
 30
0.0
  0
SPLINE
  5
183
100
AcDbEntity
  8
Layer_1
 62
7
100
AcDbSpline
 70
8
 71
3
 72
8
 73
4
 74
0
 40
0
 40
0
 40
0
 40
0
 40
1
 40
1
 40
1
 40
1
 10
75.013532
 20
172.367788
 30
0.0
 10
74.825995
 20
172.555325
 30
0.0
 10
74.571641
 20
172.660682
 30
0.0
 10
74.306425
 20
172.660682
 30
0.0
  0
LINE
  5
184
100
AcDbEntity
  8
Layer_1
 62
7
100
AcDbLine
 10
74.306425
 20
172.660682
 30
0.0
 11
45.306425
 21
172.660682
 31
0.0
  0
SPLINE
  5
185
100
AcDbEntity
  8
Layer_1
 62
7
100
AcDbSpline
 70
8
 71
3
 72
8
 73
4
 74
0
 40
0
 40
0
 40
0
 40
0
 40
1
 40
1
 40
1
 40
1
 10
45.306425
 20
172.660682
 30
0.0
 10
45.041209
 20
172.660682
 30
0.0
 10
44.786855
 20
172.555325
 30
0.0
 10
44.599318
 20
172.367788
 30
0.0
  0
SPLINE
  5
186
100
AcDbEntity
  8
Layer_1
 62
7
100
AcDbSpline
 70
8
 71
3
 72
8
 73
4
 74
0
 40
0
 40
0
 40
0
 40
0
 40
1
 40
1
 40
1
 40
1
 10
44.599318
 20
172.367788
 30
0.0
 10
44.411782
 20
172.180252
 30
0.0
 10
44.306425
 20
171.925898
 30
0.0
 10
44.306425
 20
171.660682
 30
0.0
  0
LINE
  5
187
100
AcDbEntity
  8
Layer_1
 62
7
100
AcDbLine
 10
103.856415
 20
164.026783
 30
0.0
 11
103.856415
 21
276.026793
 31
0.0
  0
SPLINE
  5
188
100
AcDbEntity
  8
Layer_1
 62
7
100
AcDbSpline
 70
8
 71
3
 72
8
 73
4
 74
0
 40
0
 40
0
 40
0
 40
0
 40
1
 40
1
 40
1
 40
1
 10
103.856415
 20
276.026793
 30
0.0
 10
103.856415
 20
278.788212
 30
0.0
 10
101.617845
 20
281.026787
 30
0.0
 10
98.856425
 20
281.026793
 30
0.0
  0
LINE
  5
189
100
AcDbEntity
  8
Layer_1
 62
7
100
AcDbLine
 10
98.856425
 20
281.026793
 30
0.0
 11
96.456405
 21
281.026793
 31
0.0
  0
SPLINE
  5
18a
100
AcDbEntity
  8
Layer_1
 62
7
100
AcDbSpline
 70
8
 71
3
 72
8
 73
4
 74
0
 40
0
 40
0
 40
0
 40
0
 40
1
 40
1
 40
1
 40
1
 10
96.456405
 20
281.026793
 30
0.0
 10
95.904124
 20
281.026787
 30
0.0
 10
95.456415
 20
280.579074
 30
0.0
 10
95.456415
 20
280.026793
 30
0.0
  0
LINE
  5
18b
100
AcDbEntity
  8
Layer_1
 62
7
100
AcDbLine
 10
95.456415
 20
280.026793
 30
0.0
 11
95.456415
 21
276.026793
 31
0.0
  0
SPLINE
  5
18c
100
AcDbEntity
  8
Layer_1
 62
7
100
AcDbSpline
 70
8
 71
3
 72
8
 73
4
 74
0
 40
0
 40
0
 40
0
 40
0
 40
1
 40
1
 40
1
 40
1
 10
95.456735
 20
276.026793
 30
0.0
 10
95.456735
 20
275.761576
 30
0.0
 10
95.351378
 20
275.507222
 30
0.0
 10
95.163842
 20
275.319686
 30
0.0
  0
SPLINE
  5
18d
100
AcDbEntity
  8
Layer_1
 62
7
100
AcDbSpline
 70
8
 71
3
 72
8
 73
4
 74
0
 40
0
 40
0
 40
0
 40
0
 40
1
 40
1
 40
1
 40
1
 10
95.163842
 20
275.319686
 30
0.0
 10
94.976305
 20
275.132149
 30
0.0
 10
94.721951
 20
275.026793
 30
0.0
 10
94.456735
 20
275.026793
 30
0.0
  0
LINE
  5
18e
100
AcDbEntity
  8
Layer_1
 62
7
100
AcDbLine
 10
94.456415
 20
275.026793
 30
0.0
 11
75.456425
 21
275.026793
 31
0.0
  0
SPLINE
  5
18f
100
AcDbEntity
  8
Layer_1
 62
7
100
AcDbSpline
 70
8
 71
3
 72
8
 73
4
 74
0
 40
0
 40
0
 40
0
 40
0
 40
1
 40
1
 40
1
 40
1
 10
75.456105
 20
275.026793
 30
0.0
 10
75.190889
 20
275.026793
 30
0.0
 10
74.936535
 20
275.132149
 30
0.0
 10
74.748998
 20
275.319686
 30
0.0
  0
SPLINE
  5
190
100
AcDbEntity
  8
Layer_1
 62
7
100
AcDbSpline
 70
8
 71
3
 72
8
 73
4
 74
0
 40
0
 40
0
 40
0
 40
0
 40
1
 40
1
 40
1
 40
1
 10
74.748998
 20
275.319686
 30
0.0
 10
74.561462
 20
275.507222
 30
0.0
 10
74.456105
 20
275.761576
 30
0.0
 10
74.456105
 20
276.026793
 30
0.0
  0
LINE
  5
191
100
AcDbEntity
  8
Layer_1
 62
7
100
AcDbLine
 10
74.456425
 20
276.026793
 30
0.0
 11
74.456425
 21
280.026793
 31
0.0
  0
SPLINE
  5
192
100
AcDbEntity
  8
Layer_1
 62
7
100
AcDbSpline
 70
8
 71
3
 72
8
 73
4
 74
0
 40
0
 40
0
 40
0
 40
0
 40
1
 40
1
 40
1
 40
1
 10
74.456425
 20
280.026793
 30
0.0
 10
74.456425
 20
280.292009
 30
0.0
 10
74.351068
 20
280.546363
 30
0.0
 10
74.163532
 20
280.733900
 30
0.0
  0
SPLINE
  5
193
100
AcDbEntity
  8
Layer_1
 62
7
100
AcDbSpline
 70
8
 71
3
 72
8
 73
4
 74
0
 40
0
 40
0
 40
0
 40
0
 40
1
 40
1
 40
1
 40
1
 10
74.163532
 20
280.733900
 30
0.0
 10
73.975996
 20
280.921436
 30
0.0
 10
73.721642
 20
281.026793
 30
0.0
 10
73.456425
 20
281.026793
 30
0.0
  0
LINE
  5
194
100
AcDbEntity
  8
Layer_1
 62
7
100
AcDbLine
 10
73.456425
 20
281.026793
 30
0.0
 11
31.856415
 21
281.026793
 31
0.0
  0
SPLINE
  5
195
100
AcDbEntity
  8
Layer_1
 62
7
100
AcDbSpline
 70
8
 71
3
 72
8
 73
4
 74
0
 40
0
 40
0
 40
0
 40
0
 40
1
 40
1
 40
1
 40
1
 10
31.856415
 20
281.026793
 30
0.0
 10
30.530329
 20
281.026798
 30
0.0
 10
29.258554
 20
280.500016
 30
0.0
 10
28.320868
 20
279.562334
 30
0.0
  0
SPLINE
  5
196
100
AcDbEntity
  8
Layer_1
 62
7
100
AcDbSpline
 70
8
 71
3
 72
8
 73
4
 74
0
 40
0
 40
0
 40
0
 40
0
 40
1
 40
1
 40
1
 40
1
 10
28.320868
 20
279.562334
 30
0.0
 10
27.383182
 20
278.624651
 30
0.0
 10
26.856395
 20
277.352878
 30
0.0
 10
26.856395
 20
276.026793
 30
0.0
  0
LINE
  5
197
100
AcDbEntity
  8
Layer_1
 62
7
100
AcDbLine
 10
26.856395
 20
276.026793
 30
0.0
 11
26.856395
 21
164.026783
 31
0.0
  0
SPLINE
  5
198
100
AcDbEntity
  8
Layer_1
 62
7
100
AcDbSpline
 70
8
 71
3
 72
8
 73
4
 74
0
 40
0
 40
0
 40
0
 40
0
 40
1
 40
1
 40
1
 40
1
 10
26.856395
 20
164.026783
 30
0.0
 10
26.856395
 20
162.700697
 30
0.0
 10
27.383182
 20
161.428924
 30
0.0
 10
28.320868
 20
160.491242
 30
0.0
  0
SPLINE
  5
199
100
AcDbEntity
  8
Layer_1
 62
7
100
AcDbSpline
 70
8
 71
3
 72
8
 73
4
 74
0
 40
0
 40
0
 40
0
 40
0
 40
1
 40
1
 40
1
 40
1
 10
28.320868
 20
160.491242
 30
0.0
 10
29.258554
 20
159.553559
 30
0.0
 10
30.530329
 20
159.026777
 30
0.0
 10
31.856415
 20
159.026783
 30
0.0
  0
LINE
  5
19a
100
AcDbEntity
  8
Layer_1
 62
7
100
AcDbLine
 10
31.856415
 20
159.026783
 30
0.0
 11
98.856425
 21
159.026783
 31
0.0
  0
SPLINE
  5
19b
100
AcDbEntity
  8
Layer_1
 62
7
100
AcDbSpline
 70
8
 71
3
 72
8
 73
4
 74
0
 40
0
 40
0
 40
0
 40
0
 40
1
 40
1
 40
1
 40
1
 10
98.856425
 20
159.026783
 30
0.0
 10
101.617845
 20
159.026788
 30
0.0
 10
103.856415
 20
161.265363
 30
0.0
 10
103.856415
 20
164.026783
 30
0.0
  0
SPLINE
  5
19c
100
AcDbEntity
  8
Layer_1
 62
7
100
AcDbSpline
 70
8
 71
3
 72
8
 73
4
 74
0
 40
0
 40
0
 40
0
 40
0
 40
1
 40
1
 40
1
 40
1
 10
31.856422
 20
151.661560
 30
0.0
 10
32.428514
 20
151.660859
 30
0.0
 10
32.957448
 20
151.965664
 30
0.0
 10
33.243697
 20
152.460994
 30
0.0
  0
SPLINE
  5
19d
100
AcDbEntity
  8
Layer_1
 62
7
100
AcDbSpline
 70
8
 71
3
 72
8
 73
4
 74
0
 40
0
 40
0
 40
0
 40
0
 40
1
 40
1
 40
1
 40
1
 10
33.243697
 20
152.460994
 30
0.0
 10
33.529945
 20
152.956323
 30
0.0
 10
33.529945
 20
153.566797
 30
0.0
 10
33.243697
 20
154.062126
 30
0.0
  0
SPLINE
  5
19e
100
AcDbEntity
  8
Layer_1
 62
7
100
AcDbSpline
 70
8
 71
3
 72
8
 73
4
 74
0
 40
0
 40
0
 40
0
 40
0
 40
1
 40
1
 40
1
 40
1
 10
33.243697
 20
154.062126
 30
0.0
 10
32.957448
 20
154.557456
 30
0.0
 10
32.428514
 20
154.862261
 30
0.0
 10
31.856422
 20
154.861560
 30
0.0
  0
SPLINE
  5
19f
100
AcDbEntity
  8
Layer_1
 62
7
100
AcDbSpline
 70
8
 71
3
 72
8
 73
4
 74
0
 40
0
 40
0
 40
0
 40
0
 40
1
 40
1
 40
1
 40
1
 10
31.856422
 20
154.861560
 30
0.0
 10
31.284330
 20
154.862261
 30
0.0
 10
30.755396
 20
154.557456
 30
0.0
 10
30.469147
 20
154.062126
 30
0.0
  0
SPLINE
  5
1a0
100
AcDbEntity
  8
Layer_1
 62
7
100
AcDbSpline
 70
8
 71
3
 72
8
 73
4
 74
0
 40
0
 40
0
 40
0
 40
0
 40
1
 40
1
 40
1
 40
1
 10
30.469147
 20
154.062126
 30
0.0
 10
30.182899
 20
153.566797
 30
0.0
 10
30.182899
 20
152.956323
 30
0.0
 10
30.469147
 20
152.460994
 30
0.0
  0
SPLINE
  5
1a1
100
AcDbEntity
  8
Layer_1
 62
7
100
AcDbSpline
 70
8
 71
3
 72
8
 73
4
 74
0
 40
0
 40
0
 40
0
 40
0
 40
1
 40
1
 40
1
 40
1
 10
30.469147
 20
152.460994
 30
0.0
 10
30.755396
 20
151.965664
 30
0.0
 10
31.284330
 20
151.660859
 30
0.0
 10
31.856422
 20
151.661560
 30
0.0
  0
LINE
  5
1a2
100
AcDbEntity
  8
Layer_1
 62
7
100
AcDbLine
 10
31.856422
 20
151.661560
 30
0.0
 11
31.856422
 21
151.661560
 31
0.0
  0
SPLINE
  5
1a3
100
AcDbEntity
  8
Layer_1
 62
7
100
AcDbSpline
 70
8
 71
3
 72
8
 73
4
 74
0
 40
0
 40
0
 40
0
 40
0
 40
1
 40
1
 40
1
 40
1
 10
31.856422
 20
39.661540
 30
0.0
 10
32.739586
 20
39.662238
 30
0.0
 10
33.455163
 20
40.378380
 30
0.0
 10
33.455163
 20
41.261545
 30
0.0
  0
SPLINE
  5
1a4
100
AcDbEntity
  8
Layer_1
 62
7
100
AcDbSpline
 70
8
 71
3
 72
8
 73
4
 74
0
 40
0
 40
0
 40
0
 40
0
 40
1
 40
1
 40
1
 40
1
 10
33.455163
 20
41.261545
 30
0.0
 10
33.455163
 20
42.144710
 30
0.0
 10
32.739586
 20
42.860852
 30
0.0
 10
31.856422
 20
42.861550
 30
0.0
  0
SPLINE
  5
1a5
100
AcDbEntity
  8
Layer_1
 62
7
100
AcDbSpline
 70
8
 71
3
 72
8
 73
4
 74
0
 40
0
 40
0
 40
0
 40
0
 40
1
 40
1
 40
1
 40
1
 10
31.856422
 20
42.861550
 30
0.0
 10
31.284494
 20
42.862002
 30
0.0
 10
30.755817
 20
42.557142
 30
0.0
 10
30.469723
 20
42.061913
 30
0.0
  0
SPLINE
  5
1a6
100
AcDbEntity
  8
Layer_1
 62
7
100
AcDbSpline
 70
8
 71
3
 72
8
 73
4
 74
0
 40
0
 40
0
 40
0
 40
0
 40
1
 40
1
 40
1
 40
1
 10
30.469723
 20
42.061913
 30
0.0
 10
30.183628
 20
41.566684
 30
0.0
 10
30.183628
 20
40.956406
 30
0.0
 10
30.469723
 20
40.461177
 30
0.0
  0
SPLINE
  5
1a7
100
AcDbEntity
  8
Layer_1
 62
7
100
AcDbSpline
 70
8
 71
3
 72
8
 73
4
 74
0
 40
0
 40
0
 40
0
 40
0
 40
1
 40
1
 40
1
 40
1
 10
30.469723
 20
40.461177
 30
0.0
 10
30.755817
 20
39.965948
 30
0.0
 10
31.284494
 20
39.661088
 30
0.0
 10
31.856422
 20
39.661540
 30
0.0
  0
LINE
  5
1a8
100
AcDbEntity
  8
Layer_1
 62
7
100
AcDbLine
 10
31.856422
 20
39.661540
 30
0.0
 11
31.856422
 21
39.661540
 31
0.0
  0
SPLINE
  5
1a9
100
AcDbEntity
  8
Layer_1
 62
7
100
AcDbSpline
 70
8
 71
3
 72
8
 73
4
 74
0
 40
0
 40
0
 40
0
 40
0
 40
1
 40
1
 40
1
 40
1
 10
98.856450
 20
39.661540
 30
0.0
 10
99.739614
 20
39.662238
 30
0.0
 10
100.455191
 20
40.378380
 30
0.0
 10
100.455191
 20
41.261545
 30
0.0
  0
SPLINE
  5
1aa
100
AcDbEntity
  8
Layer_1
 62
7
100
AcDbSpline
 70
8
 71
3
 72
8
 73
4
 74
0
 40
0
 40
0
 40
0
 40
0
 40
1
 40
1
 40
1
 40
1
 10
100.455191
 20
41.261545
 30
0.0
 10
100.455191
 20
42.144710
 30
0.0
 10
99.739614
 20
42.860852
 30
0.0
 10
98.856450
 20
42.861550
 30
0.0
  0
SPLINE
  5
1ab
100
AcDbEntity
  8
Layer_1
 62
7
100
AcDbSpline
 70
8
 71
3
 72
8
 73
4
 74
0
 40
0
 40
0
 40
0
 40
0
 40
1
 40
1
 40
1
 40
1
 10
98.856450
 20
42.861550
 30
0.0
 10
98.284522
 20
42.862002
 30
0.0
 10
97.755845
 20
42.557142
 30
0.0
 10
97.469751
 20
42.061913
 30
0.0
  0
SPLINE
  5
1ac
100
AcDbEntity
  8
Layer_1
 62
7
100
AcDbSpline
 70
8
 71
3
 72
8
 73
4
 74
0
 40
0
 40
0
 40
0
 40
0
 40
1
 40
1
 40
1
 40
1
 10
97.469751
 20
42.061913
 30
0.0
 10
97.183656
 20
41.566684
 30
0.0
 10
97.183656
 20
40.956406
 30
0.0
 10
97.469751
 20
40.461177
 30
0.0
  0
SPLINE
  5
1ad
100
AcDbEntity
  8
Layer_1
 62
7
100
AcDbSpline
 70
8
 71
3
 72
8
 73
4
 74
0
 40
0
 40
0
 40
0
 40
0
 40
1
 40
1
 40
1
 40
1
 10
97.469751
 20
40.461177
 30
0.0
 10
97.755845
 20
39.965948
 30
0.0
 10
98.284522
 20
39.661088
 30
0.0
 10
98.856450
 20
39.661540
 30
0.0
  0
LINE
  5
1ae
100
AcDbEntity
  8
Layer_1
 62
7
100
AcDbLine
 10
98.856450
 20
39.661540
 30
0.0
 11
98.856450
 21
39.661540
 31
0.0
  0
SPLINE
  5
1af
100
AcDbEntity
  8
Layer_1
 62
7
100
AcDbSpline
 70
8
 71
3
 72
8
 73
4
 74
0
 40
0
 40
0
 40
0
 40
0
 40
1
 40
1
 40
1
 40
1
 10
98.856450
 20
151.661560
 30
0.0
 10
99.428542
 20
151.660859
 30
0.0
 10
99.957476
 20
151.965664
 30
0.0
 10
100.243725
 20
152.460994
 30
0.0
  0
SPLINE
  5
1b0
100
AcDbEntity
  8
Layer_1
 62
7
100
AcDbSpline
 70
8
 71
3
 72
8
 73
4
 74
0
 40
0
 40
0
 40
0
 40
0
 40
1
 40
1
 40
1
 40
1
 10
100.243725
 20
152.460994
 30
0.0
 10
100.529973
 20
152.956323
 30
0.0
 10
100.529973
 20
153.566797
 30
0.0
 10
100.243725
 20
154.062126
 30
0.0
  0
SPLINE
  5
1b1
100
AcDbEntity
  8
Layer_1
 62
7
100
AcDbSpline
 70
8
 71
3
 72
8
 73
4
 74
0
 40
0
 40
0
 40
0
 40
0
 40
1
 40
1
 40
1
 40
1
 10
100.243725
 20
154.062126
 30
0.0
 10
99.957476
 20
154.557456
 30
0.0
 10
99.428542
 20
154.862261
 30
0.0
 10
98.856450
 20
154.861560
 30
0.0
  0
SPLINE
  5
1b2
100
AcDbEntity
  8
Layer_1
 62
7
100
AcDbSpline
 70
8
 71
3
 72
8
 73
4
 74
0
 40
0
 40
0
 40
0
 40
0
 40
1
 40
1
 40
1
 40
1
 10
98.856450
 20
154.861560
 30
0.0
 10
98.284358
 20
154.862261
 30
0.0
 10
97.755424
 20
154.557456
 30
0.0
 10
97.469175
 20
154.062126
 30
0.0
  0
SPLINE
  5
1b3
100
AcDbEntity
  8
Layer_1
 62
7
100
AcDbSpline
 70
8
 71
3
 72
8
 73
4
 74
0
 40
0
 40
0
 40
0
 40
0
 40
1
 40
1
 40
1
 40
1
 10
97.469175
 20
154.062126
 30
0.0
 10
97.182927
 20
153.566797
 30
0.0
 10
97.182927
 20
152.956323
 30
0.0
 10
97.469175
 20
152.460994
 30
0.0
  0
SPLINE
  5
1b4
100
AcDbEntity
  8
Layer_1
 62
7
100
AcDbSpline
 70
8
 71
3
 72
8
 73
4
 74
0
 40
0
 40
0
 40
0
 40
0
 40
1
 40
1
 40
1
 40
1
 10
97.469175
 20
152.460994
 30
0.0
 10
97.755424
 20
151.965664
 30
0.0
 10
98.284358
 20
151.660859
 30
0.0
 10
98.856450
 20
151.661560
 30
0.0
  0
LINE
  5
1b5
100
AcDbEntity
  8
Layer_1
 62
7
100
AcDbLine
 10
98.856450
 20
151.661560
 30
0.0
 11
98.856450
 21
151.661560
 31
0.0
  0
LINE
  5
1b6
100
AcDbEntity
  8
Layer_1
 62
7
100
AcDbLine
 10
98.856425
 20
158.270416
 30
0.0
 11
31.856415
 21
158.270416
 31
0.0
  0
SPLINE
  5
1b7
100
AcDbEntity
  8
Layer_1
 62
7
100
AcDbSpline
 70
8
 71
3
 72
8
 73
4
 74
0
 40
0
 40
0
 40
0
 40
0
 40
1
 40
1
 40
1
 40
1
 10
31.856415
 20
158.270416
 30
0.0
 10
30.530329
 20
158.270421
 30
0.0
 10
29.258554
 20
157.743639
 30
0.0
 10
28.320868
 20
156.805957
 30
0.0
  0
SPLINE
  5
1b8
100
AcDbEntity
  8
Layer_1
 62
7
100
AcDbSpline
 70
8
 71
3
 72
8
 73
4
 74
0
 40
0
 40
0
 40
0
 40
0
 40
1
 40
1
 40
1
 40
1
 10
28.320868
 20
156.805957
 30
0.0
 10
27.383182
 20
155.868274
 30
0.0
 10
26.856395
 20
154.596502
 30
0.0
 10
26.856395
 20
153.270416
 30
0.0
  0
LINE
  5
1b9
100
AcDbEntity
  8
Layer_1
 62
7
100
AcDbLine
 10
26.856395
 20
153.270416
 30
0.0
 11
26.856395
 21
41.270396
 31
0.0
  0
SPLINE
  5
1ba
100
AcDbEntity
  8
Layer_1
 62
7
100
AcDbSpline
 70
8
 71
3
 72
8
 73
4
 74
0
 40
0
 40
0
 40
0
 40
0
 40
1
 40
1
 40
1
 40
1
 10
26.856395
 20
41.270396
 30
0.0
 10
26.856398
 20
39.944312
 30
0.0
 10
27.383186
 20
38.672542
 30
0.0
 10
28.320872
 20
37.734862
 30
0.0
  0
SPLINE
  5
1bb
100
AcDbEntity
  8
Layer_1
 62
7
100
AcDbSpline
 70
8
 71
3
 72
8
 73
4
 74
0
 40
0
 40
0
 40
0
 40
0
 40
1
 40
1
 40
1
 40
1
 10
28.320872
 20
37.734862
 30
0.0
 10
29.258558
 20
36.797181
 30
0.0
 10
30.530331
 20
36.270401
 30
0.0
 10
31.856415
 20
36.270406
 30
0.0
  0
LINE
  5
1bc
100
AcDbEntity
  8
Layer_1
 62
7
100
AcDbLine
 10
31.856415
 20
36.270406
 30
0.0
 11
98.856425
 21
36.270406
 31
0.0
  0
SPLINE
  5
1bd
100
AcDbEntity
  8
Layer_1
 62
7
100
AcDbSpline
 70
8
 71
3
 72
8
 73
4
 74
0
 40
0
 40
0
 40
0
 40
0
 40
1
 40
1
 40
1
 40
1
 10
98.856425
 20
36.270406
 30
0.0
 10
101.617841
 20
36.270412
 30
0.0
 10
103.856409
 20
38.508980
 30
0.0
 10
103.856415
 20
41.270396
 30
0.0
  0
LINE
  5
1be
100
AcDbEntity
  8
Layer_1
 62
7
100
AcDbLine
 10
103.856415
 20
41.270396
 30
0.0
 11
103.856415
 21
153.270416
 31
0.0
  0
SPLINE
  5
1bf
100
AcDbEntity
  8
Layer_1
 62
7
100
AcDbSpline
 70
8
 71
3
 72
8
 73
4
 74
0
 40
0
 40
0
 40
0
 40
0
 40
1
 40
1
 40
1
 40
1
 10
103.856415
 20
153.270416
 30
0.0
 10
103.856415
 20
156.031836
 30
0.0
 10
101.617845
 20
158.270410
 30
0.0
 10
98.856425
 20
158.270416
 30
0.0
  0
LINE
  5
1c0
100
AcDbEntity
  8
Layer_1
 62
7
100
AcDbLine
 10
103.856470
 20
44.817860
 30
0.0
 11
98.856450
 21
44.817860
 31
0.0
  0
LINE
  5
1c1
100
AcDbEntity
  8
Layer_1
 62
7
100
AcDbLine
 10
98.856450
 20
41.267940
 30
0.0
 11
98.856450
 21
153.267930
 31
0.0
  0
LINE
  5
1c2
100
AcDbEntity
  8
Layer_1
 62
7
100
AcDbLine
 10
113.510500
 20
36.267930
 30
0.0
 11
113.510500
 21
158.267930
 31
0.0
  0
LINE
  5
1c3
100
AcDbEntity
  8
Layer_1
 62
7
100
AcDbLine
 10
26.856470
 20
59.284500
 30
0.0
 11
103.856470
 21
59.284500
 31
0.0
  0
ENDSEC
  0
SECTION
  2
OBJECTS
  0
DICTIONARY
  5
C
330
0
100
AcDbDictionary
  3
ACAD_GROUP
350
D
  3
ACAD_MLINESTYLE
350
17
  0
DICTIONARY
  5
D
330
C
100
AcDbDictionary
  0
DICTIONARY
  5
1A
330
C
100
AcDbDictionary
  0
DICTIONARY
  5
17
330
C
100
AcDbDictionary
  3
STANDARD
350
18
  0
DICTIONARY
  5
19
330
C
100
AcDbDictionary
  0
ENDSEC
  0
EOF
